Δευτέρα, 20 Μαΐου 2013

Καλοκαιρινά Ραντεβού (=Summer Dates) - Δυτικές Συνοικίες (Guitar Cover by SolidSnake)

Hello again this is Solid Snake and I'm back with a new cover.. only this time it's different.. :P

I'm testing some solo techniques (yeah, I've started getting into that too..) and I've picked this song to test them. It's a Greek rock song that mainly friends from Greece will understand it but rock is international so everyone could enjoy. It's called "Καλοκαιρινά Ραντεβού" in Greek and it translates to "Summer Dates" in English by a band called "Δυτικές Συνοικίες" that means something like "West Sides" in English. Either way, I hope you enjoy it as much as I did while playing it!


Thank you for watching!
SolidSnake

Edit : The Second Solo tab is in the comment below for anyone interested in playing it.

1 σχόλιο:

  1. Since requested here is the tabbing of the second solo the way I listen to it and play it.. (you can always play it differently if you feel it sounds better with another version) :

    Solo 2:

    e---------------------------------------------------------------------------
    B---------------------------------------------------------------------------
    G-13~15-15~13---------------------13-11-------------------------------------
    D-------------11------11----11-11--------13-11h13-----------------------
    A------------------13----13-------------------------------------------------
    E---------------------------------------------------------------------------

    e--------------------------------------------------------------------------
    B--------------------------------------------------------------------------
    G---------------------------------------------------------11------11h13~---
    D-----------------------------------11------11h13---11h13------13----------
    A------9-----9h11---9h11/13---11h13------13--------------------------------
    E-9h11-----11---------------------------------------------------------------

    e--------------------------------------------------------------------------
    B---------------16-16-14----14-16p14h16------------------------------------
    G-11h13/15---15----------15------------------------------------------------
    D--------------------------------------------------------------------------
    A--------------------------------------------------------------------------
    E--------------------------------------------------------------------------

    e--------------------------------------------------------------------------
    B-16-------------16--------------------------------------------------------
    G----18-------------18------------------11-11-13-11-13/15~18--15~18--15~18-
    D-------18-16----------18-16---------13------------------------------------
    A--------------------------------------------------------------------------
    E--------------------------------------------------------------------------

    e---------------------------------------------------------------------------
    B----------------------------------------11-11-11-10------------------------
    G----------------------------------------------------13-11-11h13------------
    D---------------------------------------------------------------------------
    A---------------------------------------------------------------------------

    / means sliding
    ~ means bending
    h means hammer on
    p means pull off

    Please copy and paste it to notepad to get the correct column width, view and play it.
    Otherwise you can use word and select a Courier or Consolas text font. Both would work ok!

    Let me know if you feel something doesn't feel right.

    ΑπάντησηΔιαγραφή